Song: Send Receive
Artist: Niklas Aman
Tab: N. Aman
Stem: The main guitar 8th note arpeggio. Tempo: 137 bpm.

Intro

E----------|----------|----------|----------|
B---6---6--|---6------|---5---5--|---5---5--|
G--7-7-7-7-|--7-7-7---|--5-5-5-7-|--5-5-5---|
D-7---7----|-7---7----|-7---7----|-7---7----|
A----------|----------|----------|----------|
E----------|----------|----------|----------|

E----------|----------|----------|----------|
B---6---6--|---6---x--|---5---5--|---5---5--|
G--7-7-7-7-|--7-7-7---|--5-5-5-5-|--5-5-5---|
D-7---7----|-7---7----|-7---7----|-7---7----|
A----------|----------|----------|----------|
E----------|----------|----------|----------|

E----------|----------|----------|----------|
B---6---6--|---6---x--|---5---5--|---5---5--|
G--7-7-7-7-|--7-7-7---|--5-5-5-5-|--5-5-5-0-|
D-7---7----|-7---7----|-7---7----|-7---7----|
A----------|----------|----------|----------|
E----------|----------|----------|----------|

 
E----------|----------|----------|----------|
B---6---6--|---6---x--|---5---5--|---5---5--|
G--7-7-7-7-|--7-7-7---|--5-5-5-5-|--5-5-5-0-|
D-7---7----|-7---7----|-7---7----|-7---7----|
A----------|----------|----------|----------|
E----------|----------|----------|----------|

A-part

E----------|----------|----------|----------|
B---6---6--|---6---x--|---5---5--|---5---5--|
G--7-7-7-7-|--7-7-7---|--5-5-5-5-|--5-5-5-0-|
D-7---7----|-7---7----|-7---7----|-7---7----|
A----------|----------|----------|----------|
E----------|----------|----------|----------|

E----------|----------|----------|----------|
B---6---6--|---6---x--|---5---5--|---5---5--|
G--7-7-7-7-|--7-7-7---|--5-5-5-5-|--5-5-5-0-|
D-7---7----|-7---7----|-7---7----|-7---7----|
A----------|----------|----------|----------|
E----------|----------|----------|----------| 

E----------|----------|----------|----------|
B---6---6--|---6---x--|---5---5--|---5---5--|
G--7-7-7-7-|--7-7-7---|--5-5-5-5-|--5-5-5-0-|
D-7---7----|-7---7----|-7---7----|-7---7----|
A----------|----------|----------|----------|
E----------|----------|----------|----------| 

E----------|----------|----------|----------|
B---6---6--|---6---x--|---5---5--|---5---5--|
G--7-7-7-7-|--7-7-7---|--5-5-5-5-|--5-5-5-x-|
D-7---7----|-7---7----|-7---7----|-7---7----|
A----------|----------|----------|----------|
E----------|----------|----------|----------| 

B-part

E----------|----------|----------|----------|
B---6---6--|---6------|---8---8--|---8---8--|
G--7-7-7-7-|--7-7-7---|--7-7-7-7-|--7-7-7---|
D-7---7----|-7---7----|-9---9----|-9---9----|
A----------|----------|----------|----------|
E----------|----------|----------|----------|

E------------|------------|----------|----------|
B----8----8--|----8----x--|---5---5--|---5---5--|
G---9-9--9-9-|---9-9--9---|--5-5-5-5-|--5-5-5---|
D-10---10----|-10---10----|-7---7----|-7---7----|
A------------|------------|----------|----------|
E------------|------------|----------|----------| 

E----------|----------|----------|----------|
B---6---6--|---6------|---8---8--|---8---8--|
G--7-7-7-7-|--7-7-7---|--7-7-7-7-|--7-7-7---|
D-7---7----|-7---7----|-9---9----|-9---9----|
A----------|----------|----------|----------|
E----------|----------|----------|----------|

E------------|------------|----------|----------|
B----8----8--|----8----x--|---5---5--|---5------|
G---9-9--9-9-|---9-9--9---|--5-5-5-5-|--5-5-5---|
D-10---10----|-10---10----|-7---7----|-7---7----|
A------------|------------|----------|----------|
E------------|------------|----------|----------| 

E----------|----------|----------|----------|
B---6---6--|---6------|---8---8--|---8---8--|
G--7-7-7-7-|--7-7-7---|--7-7-7-7-|--7-7-7---|
D-7---7----|-7---7----|-9---9----|-9---9----|
A----------|----------|----------|----------|
E----------|----------|----------|----------|

E------------|------------|----------|----------|
B----8----8--|----8-------|---5---5--|---5---5--|
G---9-9--9-9-|---9-9--9---|--5-5-5-5-|--5-5-5---|
D-10---10----|-10---10----|-7---7----|-7---7----|
A------------|------------|----------|----------|
E------------|------------|----------|----------| 

E----------|----------|----------|----------|
B---6---6--|---6------|---8---8--|---8------|
G--7-7-7-7-|--7-7-7---|--7-7-7-7-|--7-7-7---|
D-7---7----|-7---7----|-9---9----|-9---9----|
A----------|----------|----------|----------|
E----------|----------|----------|----------|

E------------|------------|----------|----------|
B----8----8--|----8-------|---5---5--|---5------|
G---9-9--9-9-|---9-9--9---|--5-5-5-5-|--5-5-5---|
D-10---10----|-10---10----|-7---7----|-7---7----|
A------------|------------|----------|----------|
E------------|------------|----------|----------| 

Repeat all above (Intro+A+B) then the C end-chord below:

E----------|
B---8------|
G---9------|
D--10------|
A----------|
E----------|